Kalles Klätterträd - Jojje Wadenius



Lyrics:
Mitt i stan bor en kille
som heter Kalle
och Kalle har ett träd

Som han kallar sitt eget
han sitter där uppe
och drömmer och fantiserar om allt möjligt och om Emma

Emma finns bara i fantasin
men hon är fin tänker Kalle

Under trädet sitter morfar och läser tidningen
morfar tycker om att läsa om allting som har hänt

Men Kalle han gillar att mest ligga stilla
på toppen och sakta gungas av vinden

A. Intro
F# E F# A F# E B 
----------------------------
----------------------------
------------------------1---
--------------------4-------
----------------------------
----------------------------


B. Verse 1
F# E F# A F# E B F# E 
------------------------------------------------------------2---2---------------------------------------------------------------
--------------------------------2---4---5---5---2-------2-----------5---5---2---4-----------------------------------------------
3---1-------1---1-----------3---------------------------------------------------------------1---3---1-------1---1---------------
--------4-----------4-------------------------------------------------------------------4---------------4-----------4-------4---
--------------------------------------------------------------------------------------------------------------------------------
--------------------------------------------------------------------------------------------------------------------------------


F# A F# E B A G G G 
--------------------------------2---4---2-----------------------------------------------------------
----2---4---5---5---2-------2---------------5---5---2---4---4---2-------2---2-----------------------
3-------------------------------------------------------------------4-----------4---2---4---4-------
----------------------------------------------------------------------------------------------------
----------------------------------------------------------------------------------------------------
----------------------------------------------------------------------------------------------------


A E A E A 
--------------------------------------------------------------------------------------------
--------------------------------------------------------------------------------------------
--------------------2-----------------------------------------------------------------------
----2-------4---5-------5---4---4-------2---------------------------2---2-------------------
4-----------------------------------5---------------4---5---4-------------------4-------4---
--------------------------------------------------------------------------------------------


B F# E F# A F# E B 
----------------------------------------
----------------------------------------
----------------------------------------
4---4-----------------------------------
--------------------------------1---2---
----------------------------------------


D. Verse 2
A E A E 
--------------------------------------------------------------------------------------------------------
--------------------------------------------------------------------------------------------------------
------------------------2---------------------------------------------------2---------------------------
----2---2---4---5---5-------5---4---4-------2---2-------2-----------5---5-------5---4---2-------2---5---
4---------------------------------------5-----------5---------------------------------------------------
--------------------------------------------------------------------------------------------------------


A B F# E F# A F# E 
------------------------------------------------------------------------------------------------------------2---4---2-----------
--------------------------------------------------------------------------------2---4---5---5---2-------2---------------5---2---
----2---------------------------------------3---1-------1---1---------------3---------------------------------------------------
5-------5---4---2-------2---4---4-------4-----------4-----------4-------4-------------------------------------------------------
--------------------5-----------------------------------------------------------------------------------------------------------
--------------------------------------------------------------------------------------------------------------------------------


B A E A E 
------------------------------------------------------------------------------------------------
4---2-------2---2-----------3---2-------2---------------------------------------------------3---
--------4---------------------------4-------4---2-----------2---4---4-------------------4-------
----------------------------------------------------5---5---------------5---2-------5-----------
------------------------------------------------------------------------------------------------
------------------------------------------------------------------------------------------------


A E A E 
----------------2---2-------------------------------2---3-----------5-------------------5---7---
2-----------5-----------3-----------------------3-----------5-----------------------8-----------
----------------------------4---------------4---------------------------------------------------
--------------------------------5---2---5-------------------------------------------------------
------------------------------------------------------------------------------------------------
------------------------------------------------------------------------------------------------


A E A E 
------------------------------------------------------------------------------------------------5-------------------
8---5---5---5-------5---5---5---8---5---5---5-------5---5---8---5---5---5-------5---5---5---8-------7-------5---5---
----------------6-------------------------------7---------------------------6---------------------------7-----------
--------------------------------------------------------------------------------------------------------------------
--------------------------------------------------------------------------------------------------------------------
--------------------------------------------------------------------------------------------------------------------


A E A E 
----3---2---0-------0-----------------------------------------------------------------------------------------------------------5-----------5---
----------------3-------3---2---0-------3-------------------------------------------------------------------------------2---3-------------------
------------------------------------2-------6---4---2---0---4---2---0-------------------------------------------2---4---------------------------
------------------------------------------------------------------------4---5---2-------4-----------2---4---5-----------------------------------
------------------------------------------------------------------------------------5-------4---5-----------------------------------------------
------------------------------------------------------------------------------------------------------------------------------------------------


A E A E 
9---7-----------7---9---7-------------------7-----------7-------------------------------7---10--
--------10--10--------------10--8---8---8-------8---10------------------------------8-----------
------------------------------------------------------------9---------------9---9---------------
------------------------------------------------------------------------------------------------
------------------------------------------------------------------------------------------------
------------------------------------------------------------------------------------------------


A E A E 
9---7-----------7---9-------7---5-----------5---7-------5-------------------------------------------2---3-------2---
--------10--10----------10----------8---8-----------8-------8---5-------------------------------5-----------4-------
--------------------------------------------------------------------7---5---6---------------------------------------
--------------------------------------------------------------------------------7---5-------------------------------
--------------------------------------------------------------------------------------------------------------------
--------------------------------------------------------------------------------------------------------------------


A E A 
--------------------5---4---3-------------------------------------------------------
5-------2-------2-------------------7---6---5-------5-------------------------------
----4-------2-------------------------------------------7---4-------4---------------
----------------------------------------------------------------7-------5-----------
----------------------------------------------------------------------------7-------
------------------------------------------------------------------------------------